C-Dur Akkord

Home > C-Dur


Schreibweisen: C, C-Dur, C Major


Hörbeispiel


So klingt der C-Dur Akkord auf der Gitarre




C-Dur Tonleiter (mit Noten)

C-Dur Tonleiter

C-Dur Tonleiter (mit Tabs)


e |---------------------------|
h |---------------------0-1---|
g |---------------0--2--------|
D |------0--2--3--------------|
A |---3-----------------------|
E |---------------------------|



C-Dur als Akkord für Gitarre


Der C-Dur Akkord lässt sich in verschiedenen Lagen greifen. Am einfachsten ist er als Leergriff in der ersten Lage zu spielen. Dieser Akkord ist für Anfänger leicht zu erlernen, und gehört, da C-Dur eine häufig benutzte Tonart ist, zum Standardrepertoire jedes Gitarristen.

Darüber hinaus kann er als E-Dur Barréakkord im achten und als A-Dur Barréakkord im dritten Bund gegriffen werden.


C-Dur Dreiklang

    1 - Prim (Grundton): C

    3 - gr. Terz: E

    5 - reine Quinte: G

C-Dur Gitarrengriff



C-Dur Gitarrengriff

Z = Zeigefinger

M = Mittelfinger

R = Ringfinger


C-Dur als Barré


C-Dur im 3.Bund

oder
C-Dur im 3.Bund als Barré


C-Dur Gitarren-Tab


|-------0-------
|-------1-------
|-------0-------
|-------2-------
|-------3-------
|-------x-------