D-Dur Akkord

Home > D-Dur


Schreibweisen: D, D-Dur, D Major (englisch)


Hörbeispiel


So klingt der D-Dur Akkord auf der Gitarre




D-Dur Tonleiter (mit Noten)

D-Dur Tonleiter

D-Dur Tonleiter (mit Tabs)


-----------------------------6--8-10-
---------------------5--7--9---------
---------------5--7------------------
------4--6--8------------------------
-5--7--------------------------------
-------------------------------------



D-Dur als Akkord für Gitarre


Der D-Dur Akkord klingt am besten als Leergriff. Er ist einer der einfachsten Akkorde und sollte zu den ersten Griffen beim Erlernen des Gitarrespieles gehören. D-Dur ist eine der am häufigsten benutzten Tonarten.

Als Barréakkord kann er im fünften Bund als A-Dur Barré, im zehnten Bund als E-Dur Barré und im zweiten Bund als C-Dur Barré gegriffen werden.


D-Dur Dreiklang

    1 - Prim (Grundton): D

    3 - gr. Terz: Fis

    5 - reine Quinte: A

D-Dur Gitarrengriff



D-Dur Gitarrengriff

D-Dur als Barré


D-Dur im 5.Bund

D-Dur Gitarren-Tab


|-------2-------
|-------3-------
|-------2-------
|-------0-------
|-------x-------
|-------x-------