E-Dur Akkord

Home > E-Dur


Schreibweisen: E, E-Dur, E Major


Hörbeispiel


So klingt der E-Dur Akkord auf der Gitarre




E-Dur Tonleiter (mit Noten)

E-Dur Tonleiter

E-Dur Tonleiter (mit Tabs)


-------------------------------8-10-12-
----------------------7--9-11----------
----------------7--9-------------------
-------6--8-10-------------------------
-7--9----------------------------------
---------------------------------------



E-Dur als Akkord für Gitarre


Der E-Dur Akkord ist der auf einer in E gestimmten Gitarre am vollsten klingende Akkord, und wird sehr häufig verwendet. In der ersten Lage bereitet er auch für Anfänger keine Probleme beim Erlernen.

Als Barréakkord kann er im vierten Bund als C-Dur Barré, und im siebenten Bund als A-Dur Barré gegriffen werden, seltener als E-Dur Barré im zwölften Bund.


E-Dur Dreiklang

    1 - Prim (Grundton): E

    3 - gr. Terz: Gis

    5 - reine Quinte: H

E-Dur Gitarrengriff



E-Dur

Z = Zeigefinger

M = Mittelfinger

R = Ringfinger


E-Dur als Barré


E-Dur im 7. Bund als Barré-Griff


E-Dur Gitarren-Tab


|-------0-------
|-------0-------
|-------1-------
|-------2-------
|-------2-------
|-------0-------