G-Dur Akkord

Home > G-Dur


Schreibweisen: G, G-Dur, G Major (englisch)


Hörbeispiel


So klingt der G-Dur Akkord auf der Gitarre




G-Dur Tonleiter (mit Noten)

D-Dur Tonleiter


G-Dur Tonleiter (mit Tabs)


|--------------------------------------3|
|--------------------------------4--6---|
|-----------------------2--4--6---------|
|-----------------3--5------------------|
|--------2--4--6------------------------|
|--3--5---------------------------------|



G-Dur als Akkord für Gitarre


Der G-Dur Akkord ist einer der wichtigsten Akkorde auf der Gitarre. Als Leergriff kann er auch von Anfängern sehr leicht erlernt werden. Barréversionen sind das E-Dur Barré im dritten Bund und das C-Dur Barré im siebenten Bund. Als A-Dur Barré im zehnten Bund klingt er selten sauber und wird in dieser Lage extrem selten gespielt.


G-Dur Dreiklang

    1 - Prim (Grundton): G

    3 - gr. Terz: H

    5 - reine Quinte: D

G-Dur Gitarrengriff



G-Dur Gitarrengriff

Z = Zeigefinger

M = Mittelfinger

R = Ringfinger


G-Dur als Barré


G-Dur als Barré

G-Dur Gitarren-Tab


|-------3-------
|-------0-------
|-------0-------
|-------0-------
|-------2-------
|-------3-------