F-Dur Akkord

Home > F-Dur


Schreibweisen: F, F-Dur, F Major


Hörbeispiel


So klingt der F-Dur Akkord auf der Gitarre




F-Dur Tonleiter

F-Dur Tonleiter

F-Dur Tonleiter (mit Tabs)


|--------------------------------------1|
|--------------------------------2--4---|
|--------------------------2--4---------|
|-----------------1--3--5---------------|
|-----------2--4------------------------|
|--1--3--5------------------------------|



F-Dur als Akkord für Gitarre


Der F-Dur Akkord kann in der ersten Lage als sogenanntes kleines Barré gegriffen werden. Allerdings bereitet sein Erlernen oft Schwierigkeiten. Trotzdem ist er als Bestandteil der C-Dur Kadenz ein sehr wichtiger Akkord.

Als Barréakkord kann er in der ersten Lage als E-Dur Barré, in der fünften Lage als C-Dur Barré und in der achten Lage als A-Dur Barré gegriffen werden.


F-Dur Dreiklang

    1 - Prim (Grundton): F

    3 - gr. Terz: A

    5 - reine Quinte: C

F-Dur Gitarrengriff



F-Dur Akkord

Z = Zeigefinger

M = Mittelfinger

R = Ringfinger


F-Dur als Barré


F-Dur im 1.Bund als Barré


F-Dur Gitarren-Tab


|-------1-------
|-------1-------
|-------2-------
|-------3-------
|-------x-------
|-------x-------